Showing posts with label lyrics. Show all posts
Showing posts with label lyrics. Show all posts

Har Dil Jo Pyaar Karega - Guitar Tabs

Song: Har Dil Jo Pyaar Karega

Movie/Album: Har Dil Jo Pyaar Karega
Music Director: Anu Malik
Singer: Alka Yagnik, Udit Narayan
Actors: Salman Khan, Rani Mukerji, Preity Zinta
Type: Guitar Tabs/Lead


Intro:
e|---------------------------------------------------------------------------|
B|-7--9--7--9--7--9-7--------7---9-7-7-7-7-----------------------------------|
G|--------------------9----9---9---------------------------------------------|
D|---------------------------------------------------------------------------|
A|---------------------------------------------------------------------------|
E|---------------------------------------------------------------------------|

e|---------------------------------------------------------------------------|
B|-7--9--7--9--7--10-9-7-----7---9-7-7-7-7-----------------------------------|
G|-----------------------9-9---9---------------------------------------------|
D|---------------------------------------------------------------------------|
A|---------------------------------------------------------------------------|
E|---------------------------------------------------------------------------|

Song:

Use hasna bhi hoga, Use rona bhi hoga
e|---------------9-9-7~------------------7-7-5-------------------------------|
B|-7-9-9/10b-10-------------5-7-7/9b-9----------9-7--------------------------|
G|---------------------------------------------------------------------------|
D|---------------------------------------------------------------------------|
A|---------------------------------------------------------------------------|
E|---------------------------------------------------------------------------|

Use pa na bhi hoga, Use khona bhi hoga
e|---------------9-9/10b-7~-----------------7-7h9-5--------------------------|
B|-7-9-9/10b-10---------------5-7-7/9b-9-------------9-7---------------------|
G|---------------------------------------------------------------------------|
D|---------------------------------------------------------------------------|
A|---------------------------------------------------------------------------|
E|---------------------------------------------------------------------------|

Suba,shaam tanayee mai aahay bharega
e|-9-9-9-10------------------------------------------------------------------|
B|----------12-12-12-9b---9/12-12/14b-12-10-10~----9--7~---------------------|
G|---------------------------------------------------------------------------|
D|---------------------------------------------------------------------------|
A|---------------------------------------------------------------------------|
E|---------------------------------------------------------------------------|

Har dil jo pyaar karega, Har dil jo pyaar karega
e|---------------------------------------------------------------------------|
B|--------7/9b--7-7-7~----------------9--7-7-7~------------------------------|
G|-6-7-9--------------------6-7-7/9b-----------------------------------------|
D|---------------------------------------------------------------------------|
A|---------------------------------------------------------------------------|
E|---------------------------------------------------------------------------|





Please Suggest Correction in Comments.