Showing posts with label SAJNI live version (jal) guitar tabs lead. Show all posts
Showing posts with label SAJNI live version (jal) guitar tabs lead. Show all posts

SAJNI live version (jal) guitar tabs lead


The tabs are difficult and they used around 2-3 guitars for that but to make it simple i am posting its easier version

and further if u need SAJNI live version tabs i can provide u that

from 02:33

e-------------------------------6h7-6-6---6-4s2-0--------------
B--------------11-9h11-11-11----------------------4-5-5s7-5-4-2
G------8-11-13-------------------------------------------------
D-6-8-9--------------------------------------------------------
A--------------------------------------------------------------
E--------------------------------------------------------------

e-----------------------------------------------------------
B---0h2--2-------------------------------------------------2h4-4
G-4----4--4-----------4-4-4s3-3-3---3-4-6-6-4-6-6-6-4-6-----
D-----------6-4---4-6---------------------------------------
A---------------6-------------------------------------------
E----------------------------------------------------------

e-------------4-6-8-9-9-12-11-12-9 --4-7-4-6-7---
B-----------4------------------------------------
G--------4h6-------------------------------------
D-----4h6----------------------------------------
A-4h6-------------------------------------------
E-----------------------------------------------

e-7-11-9h12-12-12--6-9-7h11-11-11--4-7-6h9-9-9-----7-4-7-4-7-2
B-------------------------------------------------------------
G-------------------------------------------------------------
D-------------------------------------------------------------
A------------------------------------------------------------
E-------------------------------------------------------------


e-4-7-4-6-7--------------------------
B------------------------------------
G-------------------------------4-4~6-
D--------------------2-4-----4h6-------
A-----------------2-4-----4h6----------
E------------4-6---------------------



*h-hammer
*s-slide