Showing posts with label M hindi songs tabs lead. Show all posts
Showing posts with label M hindi songs tabs lead. Show all posts

M hindi songs tabs lead




Main Hoon Na - Guitar Tabs

Song: Main Hoon Na
Movie/Album:  Main Hoon Na
Music Director:  Anu Malik
Singer: Sonu Nigam, Shreya Ghoshal
Actors: Shahrukh Khan, Sunil Shetty, Sushmita Sen, 
Zayed Khan, Amrita Rao
Type: Guitar Tabs
Author:



Mukhda

e------------------------|----------------|-------------------------------
B10-11-13-11--10--|-----------------------|----------10-----------
G---------------12---- |-12-12-10h12-12-|-12--10---10h12---
D-------------------|----------------|------------------------------------
A-------------------|----------------|------------------------------------
E-------------------|----------------|------------------------------------
{ kiskaa hai ye tumko  in te   zaar    main hoon  naaaa
 dekh lo idhar to     ek     baar    main hoon na }  x2


e-------10-10--9-10--|10--10--9--10---|10--12_12-------|
B10-11----------------|----------------|-----------10------------|
G------------------------|---------------|---------------------------|
D------------------------|----------------|--------------------------|
A------------------------|----------------|--------------------------|
E------------------------|----------------|--------------------------|
  Khaamosh  kyun ho  jo bhii kehnaa   hai ka-ho     O
  dil chaahe jitnaa  pyaar   utnaa    maang lo hoo


E12/13-12--10------|------------------------|-----10---10-h12-------------------------|
B-------------13-12---|12-12----12-12----|-13------------------10--10h11h12-10|
G------------------|------12-------------------|----------------------------------------------|
D------------------|-----------------------------|----------------------------------------------|
A------------------|-----------------------------|----------------------------------------------|
E------------------|-----------------------------|----------------------------------------------|
 tummmko  mi--legaa utnaa pyaaaaar     main hoon naaaaa     aa     a aa  aaa

{ kiskaa hai ye tumko  in te   zaar    main hoon  naaaa
 dekh lo idhar to     ek     baar    main hoon na } x2


ANTARA (1)

E--------------------------|--------------------------------------|
B10-----10------10---------|-10----10---10----10-10----|
G---12-------12---------10-|-----12---12-------------12---|
D-------------------12-----|----------------12------------------|
A--------------------------|---------------------------------------|
E--------------------------|---------------------------------------|
 kaabhi jo  tummmm  sooocho, ke tum   yeah   dekho 



E----------------------------------------------------|-----------------------|
B13-13-|-12--13-|-12--13-|-12--13-|-10--11-|-13---10-|--10---|
G----------------------------------------------------|12--10---------------|
D----------------------------------------------------|------------------------|
A----------------------------------------------------|------------------------|
E----------------------------------------------------|------------------------|
 arrey   kitnaa   mujhko   tumse   pyaar    hai..e   e  e e



E--------------------------|-------------------------------------|
B10-----10------10---------|-10----10---10----10-10----|
G---12-------12----------10|-----12---12-------------12---|
D-------------------12-12--|----------------12----------------|
A--------------------------|--------------------------------------|
E--------------------------|--------------------------------------|
 toh chuuup  mattt   rahanaa, ye  mujh se    kaha na  aa



E-------------------------------------12-10|-------------------|
B13-13-|-12--13-|-12--13-|-12--13-|-13-----|-10------|
G----------------------------------------------------------------|
D----------------------------------------------------------------|
A----------------------------------------------------------------|
E----------------------------------------------------------------|
 arey    koi    Kya  aisaa    bhi      yaaaar   hai



E------10-10--------|10--10--9--10---|10--12_12--------|
B10-11--------9---10|----------------|-----------10----------|
G-------------------|----------------|-----------------------------|
D-------------------|----------------|-----------------------------|
A-------------------|----------------|-----------------------------|
E-------------------|----------------|------------------------------|
  dil hi nahin de      jaan bhi de      jo tumhein      ----(2) hooo



E12/13-12--10------|------------------|-----10---10-h12---------------------------|
B-------------13-12|12-12----12-12----|-13------------------10--10h11h12-10|
G------------------|------12----------|----------------------------------------------------|
D------------------|------------------|------------------------------------------------------|
A------------------|------------------|------------------------------------------------------|
E------------------|------------------|------------------------------------------------------|
  toh main kahoongaa    sarkaar          main hoon naaaaa     aa     a aa  aaa



Please Suggest Correction in Comments.