Mon Valo Nei (Topu) bengali songs guitar chords and lyrics


(D)Mon valo (A)nei (D)bolo na (A)kichutei
(D)Tobu bujhe (A)nebe (D)ke ache
(D)Dekho keu (A)kache nei (D)tobu tumi (A)agubei
(D)Vanga poth (A)sathi (D)ke hobe

(Bm)Jodi kokhono (A)amay (G)mone pore (D)jay
(Bm)Kholo duwar (A)akashe (G)ami tara (D)moy
guitarchordworld.net
(Bm)Jodi kokhono (A)chhuye (G)dite ichhe (D)hoy
(Bm)Sagor ho..(A).ye aj (G)jorabo (D)tomay

(D)Ke bolo (A)ke (D)dekhebe poth (A)tomake
(D)Jodi jao (A)hariye (D)a sohore (II)

(Bm)Jodi kokhono (A)amay (G)mone pore (D)jay
(Bm)Kholo duwar (A)akashe (G)ami tara (D)moy
(Bm)Jodi kokhono (A)chhuye (G)dite ichhe (D)hoy
(Bm)Sagor ho..(A).ye aj (G)jorabo (D)tomay

(D)Hawate alo (A)chul (D)mukhe a...se (A)pore
(D)Jodi na (A)thaki ta (D)ke sorabe (II)

(Bm)Jodi kokhono (A)amay (G)mone pore (D)jay
(Bm)Kholo duwar (A)akashe (G)ami tara (D)moy
guitarchordworld.net
(Bm)Jodi kokhono (A)chhuye (G)dite ichhe (D)hoy
(Bm)Sagor ho..(A).ye aj (G)jorabo (D)tomay (II)


Chaite Paro Aurthohin (Sumon) bengali songs guitar chords and lyrics


(C)chaite paro (Am)jochona (F)kuasa (C)dhaka
(C)chaite paro (Am)ghorer siling e (F)sondha (C)tara

(C)ek mutho (Am)golap (F)r oi (G)nil (C)akash
(C)akash er oi (Am)chad (F)otho(G)ba ei (C)rat

(C)chaite paro (Am)amar (F)net er pass(C)word
(C)chaite paro (Am)shiter rate (F)amer sowe(C)tar

(C)ek mutho (Am)golap (F)r oi (G)nil (C)akash
(C)akash er oi (Am)chad (F)otho(G)ba ei (C)rat

(C)joto khusi (Am)bhabo tumi (F)diba sopno (G)dekho
(C)pabe na tumi (Am)kono kichu (F)mor kach (G)theke
guitarchordworld.net
(C)misti hasi (Am)othoba kanna (F)dekhao (G)jotoi
(C)tomar jonno (Am)noy amar (F)kono ki(C)chui

(C)chaite paro (Am)amar lekha (F)sobgulo (C)gan
(C)chaite paro (Am)one day match e (F)sare charso (C)ran

(C)ek mutho (Am)golap (F)r oi (G)nil (C)akash
guitarchordworld.net
(C)akash er oi (Am)chad (F)otho(G)ba ei (C)rat

(C)joto khusi (Am)bhabo tumi (F)diba sopno (G)dekho
(C)pabe na tumi (Am)kono kichu (F)mor kach (G)theke
(C)misti hasi (Am)othoba kanna (F)dekhao (G)jotoi
(C)tomar jonno (Am)noy amar (F)ko(G)no ki(C)chui


Hashi Mukh (Shironamhin) bengali songs guitar chords and lyrics


[Intro]
E||--------1/-0--------|--------1h-0----------|--------1h-0--------|
B||-----3--------3-----|-----3--------3-------|-----3--------3------|
G||--------------------|--------------------3--|--------------------2-|
D||--0--------------0-|--0--------------0-----|--0--------------0--|
A||--------------------|-----------------------|-----------------------|
E||--------------------|-----------------------|-----------------------|


--------------------------||
----3--2-----------------||
---------3--2-----2--3--||
----------------3--------||
-------------------------||
-------------------------||

(Dm)Prothiti (C)rastai (A#)prothiti (C)janalay
(Dm)Hashimukh (C)hashimukhe (A)anondo (Dm)dhara

(Dm)Tumi cheye (C)acho tai (A#)aami pothe (C)hete jai
(Dm)Hete hete (C)bohuduur (A)bohuduur (Dm)jete chai
guitarchordworld.net
(Dm)Tumi cheye (C)acho tai (A#)aami pothe (C)hete jai
(Dm)Hete hete (C)bohuduur (A)bohuduur (Dm)jete chai

(Gm)Rod (A#)uthe geche (C)tomader (F)nogorite
(A#)Alo eshe (C)theme geche (A)tomader (Dm)janalay
(Gm)Anondo (C)hashi mukh (A#)chena chena (C)shobkhane
(F)Eri majhe (A#)cholo mora (A)hariye (Dm)jai

(Dm)Tumi cheye (C)acho tai (A#)aami pothe (C)hete jai
(Dm)Hete hete (C)bohuduur (A)bohuduur (Dm)jete chai
(Dm)Tumi cheye (C)acho tai (A#)aami pothe (C)hete jai
(Dm)Hete hete (C)bohuduur (A)bohuduur (Dm)jete chai

(A#)Hariye (A)jete chai
(A#)Tomader (A)rastay
(A#)Hariye (A)jete chai (C)tomader (A)rastay
(Gm)Onek (C)ojanaa bhire (A)shachchya (Dm)nirobotay

(Dm)Rod uthe (A)geche (A#)chena ei (C)nogorite
(Dm)Nagorik (A#)janala (A)hashimukhe (Dm)ekakaar
guitarchordworld.net
(Dm)Anondo (C)utshob (A#)chena chena (C)shobkhane
(F)Eri majhe (C)amader (A)chute jawa (Dm)dorkaar

(Dm)Tumi cheye (C)acho tai (A#)aami pothe (C)hete jai
(Dm)Hete hete (C)bohuduur (A)bohuduur (Dm)jete chai
(Dm)Tumi cheye (C)acho tai (A#)aami pothe (C)hete jai
(Dm)Hete hete (C)bohuduur (A)bohuduur (Dm)jete chai


Hridoyhina (Miles) bengali songs guitar chords and lyrics


Intro..

E |----------------------------------------7--6---4-----6-6(h)7-6-4-------------|
B |---4-5-7----7--7--4-------4-5-7----7--------7---------------------7-4-------|
G |--------------------4-6------------------------------------------------4-----|
D |-----------------------------------------------------------------------------|
A |-----------------------------------------------------------------------------|
E |-----------------------------------------------------------------------------|


(B)Kede jay (Ebm)ei (C#m)mon kede (F#)jay
(B)Kete jai (Ebm)a (C#m)jibon kete (F#)jai

O hri(G#m)doyhina kokhono ki (Ebm)tomar
Mone (C#m)poreee naaa (F#)amake
O hri(G#m)doyhina kokhono ki (Ebm)tomar
Mone (C#m)poreee naaa (F#)amake

(B)Kede jay (Ebm)ei (C#m)mon kede (F#)jay
(B)Kete jai (Ebm)a (C#m)jibon kete (F#)jai

(B)Koto shriti makha (Ebm)din gulo
Kano (C#m)kuasay sudhu dheke (F#)jai

(B)Nishongo akhoon (Ebm)akaki
guitarchordworld.net
Din kete (C#m)jai nirobo (F#)bethay

O hri(G#m)doyhina kokhono ki (Ebm)tomar
guitarchordworld.net
Mone (C#m)poreee naaa (F#)amake
O hri(G#m)doyhina kokhono ki (Ebm)tomar
Mone (C#m)poreee naaa (F#)amake

(D)Kede jay (F#m)ei (Em)mon kede (A)jay
(D)Kete jai (F#m)a (Em)jibon kete (A)jai

O hri(D)doyhina kokhono ki (Bm)tomar
Mone (F#m)poreee naaa (A)amake
O hri(D)doyhina kokhono ki (Bm)tomar
Mone (F#m)poreee naaa (A)amake


Jeeta Tha Jiske Liye Dilwale (1994) guitar tabs lead lyrics


play it on any string i play it on G

--12-12-5-5-7--9-12-----12-12-14-12-8--5-5--7-7
Jeeta tha jiske liye Jiske liye marta tha

--0-2-5--5-5-7-8-7--7-7-5----9-9--7-8-7-5-5
Ek eisi ladki thi jise mei pyar karta tha

--0-0-2-5--5-5-7-8-7--7-7-5-7--9-9-9-9-9-9--7-8-7-5-5
eik eisi ladi thi jise mei. pyarrrrrr karta tha
9 is repeated couple of times in above line use nine as many times as you wish cause i didn't write it correctly.

--14-12-5-7-8--14-12-5-7-8--14-12-55-7-8-12
jaan se bhi jayaada, chaha tha jisko, usne hi dhoka diya

--14-14-12-12-14-15-14-12-12-
usne hi dhoka diyaaa

--12-12-14-12-8--5-5-7-7--7-8-(9)-7-5-5-
mitane se bhi, na mitagi, meri dansta
(9) indicates that u can use nine too instead of 8 over there

ek eisi ladki thi, jise mei pyar karta tha X2

peace

aziz

Soniye hiriye (shael) guitar tabs lead video

iktara (Wake Up Sid) guitar tabs lead


Author/Artist: Ehsaan Noorani
Title: Iktara - Solo
Album: Wake Up Sid
Transcribed by: Nikhil Owalekar
Email: nikhil.owalekar@gmail.com

------------------------------------------------------------------------------
---------88-10-12---10/12-15-15-15---13-12------------------------------------
-------7----------------------------------12-14-12----------9-12-12-----------
-5-7/9----------------------------------------------9-10-12-------------------
------------------------------------------------------------------------------
------------------------------------------------------------------------------


------------------------------15-14------------------8p7----------------------
---------------------15-15-17-------15h17p15----17-------10-8-10-7h8p7--------
-11h12p11\9-7-9-7----------------------------16------------------------9-7----
------------------------------------------------------------------------------
------------------------------------------------------------------------------
------------------------------------------------------------------------------


----------------------------------------8/10----------------------------------
---------88-10b13-8-10-8--7-8-7-----------------------------------------------
-----7-9-------------------------7-9-7----------------------------------------
-7/9--------------------------------------------------------------------------
------------------------------------------------------------------------------
------------------------------------------------------------------------------

lukka chuppi (rang de basanti) guitar tabs lead


E-------------------------------------------
A-------------------------------------------
D-------------------------------------------
G-------------------------------------------
B-999(10)(10)----999(10)(10)-------------------
e----------------7--------------------7-9p(10)9755-5p7p9- X2


E-------------------------------------
A-------------------------------------
D-------------------------------------
G-------------------------------------
B-||-975s4-455-77-9h(10)997h97-||-545-
e-------------------------------------

Pucho Na Yaar Kya Hua (Mast 1999) guitar tabs lead


e---------11-9-----------------------9-7-------------
B-9-8-9--------9-9h10-----7-6-7-------7-7/9--------------------
pucho na yaar kya hua,dil ka karar kya hua

e--------------------------------
B-9-8-9-10-9-7-5-7-9-7-----
tum pe to hum mar mite hain

e-7-6-7-9-7-5-----------------------------------------
B-----------------9-7-5h7-5---------------------------
ab hamara jaane kya hoga

e---------11-9------------7r-------------------------
B-9-8-9--------9-9h10----------------------------------
ay yay yay ya ya ya yaaaaha

Chalo ek baar phir se (Gumrah 1963) guitar tabs lead


             
E---------------------|-----------------------|--------------|-----------------------------7--|
B---7h8----7--------|------7----------------| Repeat -|----------------------8-10-----|
G-9-------9----7-9--|-7h9----7h9po7-----|-------------|--------7777—9999----------|
D---------------------|--------------------9--|-------------|-9999--------------------------!



E----------------|----------------|-----------------------------7-------------|
B------7-8-7-8-|--------7----7-|-------------------7-8-10----7h8po7----|
G-99------------|-77-9----9----|---------7-9-7-9-----------------------9-|
D----------------|----------------|-99-10-----------------------------------|