Showing posts with label kitni mohobbat hai guitar tabs lead. Show all posts
Showing posts with label kitni mohobbat hai guitar tabs lead. Show all posts

kitni mohobbat hai guitar tabs lead


E--------------------------------------------------------9---11---12---11---9----------------------------------
B—10---9---12-------9---9---9h12---12---12---------------------------------------------------------------

E---9---9---9---11/12---11---9/7---9---7---5----4---------------------------------------------------------
B------------------------------------------------------------------------------------------------------------------

E---7/12---12---12---12h14---14---12---11---9---11/12---12---12---12---12------------------------
B-----------------------------------------------------------------------------------------------------------------

E------12---12---12---12h14---14---12---11---9---11/12---12---12---12---12------------------------
B---------------------------------------------------------------------------------------------------------------------

E-----------------------------------------------------------------------------------------------------------------------
B---9---12---9---9---12---12---14---12---10---9/7---9-9-9-9/10-10-10-9-7-5-7/9--9/7~-------------

E--------12----------------12--------------12----12---14---14---12----7-11-11-11-9--------------9h10—9/7
B---12---------12---12---------12---12----------------------------------------------------10-10----------------