Showing posts with label Yaara Dildara (1991). Show all posts
Showing posts with label Yaara Dildara (1991). Show all posts

Bin Tere Sanam Mar Mitenge Hum - Guitar Tabs

Song: Bin Tere Sanam Mar Mitenge Hum
Movie/Album:  Yaara Dildara (1991)
Music Director:  Jatin Lalit
Singer: Udit Narayan, Kavita Krishnamurthy
Actors: Aashif Sheikh, Ruchika Panday
Type: Guitar Tabs
Author:


e----5------------------------------
B-------6--5------------------------
G-7-----------7---------------------
D-----------------------------------
A-----------------------------------
E-----------------------------------
Bin Tere Sanam

e----5------------------------------
B-------6--5------------------------
G-7-----------7---------------------
D-----------------------------------
A-----------------------------------
E-----------------------------------
Mar mitenge hum

e-----5-----------------------------
B---------8---6---8-8--5------------
G-7---------------------------------
D-----------------------------------
A-----------------------------------
E-----------------------------------
Aa Meri zindagi

e-5--5--6-6--5--------------------
B---------------8--6--8-8--5------
G-----------------------------------
D-----------------------------------
A-----------------------------------
E-----------------------------------
O Ana Hi Pada sanjna



e-----------------------------------
B-5---6---5-----5----------------
G-----------5-7---7-7------------
D-----------------------------------
A-----------------------------------
E-----------------------------------
Zalim Hai dil ki lagi


e-5--5--5--6--5---------------------
B----------------6--6---------------
G-----------------------------------
D-----------------------------------
A-----------------------------------
E-----------------------------------
Tere Hee Dum Pe Hoongee

e-5--5--5--8--8---7------------------
B-------------------8---------------
G-----------------------------------
D-----------------------------------
A-----------------------------------
E-----------------------------------
Dil Ki Muraadein Pooree

e-----------------------------------
B-8--5-5--8-8--6-5------------
G-----------------------------------
D-----------------------------------
A-----------------------------------
E-----------------------------------
Tere Bagaair Janam


e----------5--5--------------------
B-5--5--5--------6---------------
G-------------------7--------------
D-----------------------------------
A-----------------------------------
E-----------------------------------
Hai Zindagi, Adhooori



Please Suggest Correction in Comments.