Showing posts with label W hindi songs tabs lead. Show all posts
Showing posts with label W hindi songs tabs lead. Show all posts

W hindi songs tabs lead

Woh Kisna Hai - Guitar Tab

Song: Woh Kisna Hai
Movie/Album:  Kisna: The Warrior Poet
Music Director:  Ismail Darbar
Singer: Sukhwinder Singh, S.Shailja, Ismail Darbar, Ayesha Darbar
Actors: Vivek Oberoi, Antonia Bernath, Isha Sharvani, Amrish Puri
Type: Guitar Tabs
Author: akhil c nair

Instrumental

e- 8-7-5------5-8-------------------------------
B- --------8-------5—5-6-8—10—8-6-3---
G--------------------------------------------------
D--------------------------------------------------
A--------------------------------------------------
E---------------------------------------------------

e- 8-7-5----5—8--------------5-7-5-8------
B- -------8---------5----5-6-8------------------
G--------------------------------------------------
D--------------------------------------------------
A--------------------------------------------------
E---------------------------------------------------


e- 8-7-8—12—12—12—12----------------
B- ------------------------------------------------
G--------------------------------------------------
D--------------------------------------------------
A--------------------------------------------------
E---------------------------------------------------

e- 8-7-8---13—13—13—13-----------------
B- -------------------------------------------------
G--------------------------------------------------
D--------------------------------------------------
A--------------------------------------------------
E---------------------------------------------------


e- 13-15—13-10-8-6-6----------------------
B- ------------------------------------------------
G--------------------------------------------------
D--------------------------------------------------
A--------------------------------------------------
E---------------------------------------------------

e- 3-3—5—7—5—3-------------------------
B- ------------------------5----------------------
G--------------------------------------------------
D--------------------------------------------------
A--------------------------------------------------
E---------------------------------------------------


Please Suggest Correction in Comments.