Showing posts with label Tum Ko Dekha To Yeh Khayaal Aaya(sath sath jagjit singh) guitar tabs lead lyrics. Show all posts
Showing posts with label Tum Ko Dekha To Yeh Khayaal Aaya(sath sath jagjit singh) guitar tabs lead lyrics. Show all posts

Tum Ko Dekha To Yeh Khayaal Aaya(sath sath jagjit singh) guitar tabs lead lyrics

Tum ko dekha to yeh khayaal aaya...
E------------------------------------
A------------------------------------
D-------77---------------------------
G-----77-----------------------------
B-7-55----7-57-78--------8-88--------
e----------------7p5s3-3-----7-55p2--


Basic Verses:
Aaj phir, dilne, ek tamanna kii...
E------------------------------------
A------------------------------------
D------------------------------------
G------------------------------------
B----------88---------------88-5877--
e-57(10)977--5-755-57(10)977--5------

Aaj phir dil ko humane samajhaayaa...
E------------------------------------
A------------------------------------
D--------7-77-----------77-----------
G-----777------------777-------------
B-7-55-------757-7-55-----757--------
e------------------------------------

Zindegi dhoop, tum ghanaa saaya!+...
E----------------------------------------
A----------------------------------------
D------------------------------77--------
G----------------------------77----------
B-78--------8-88---------7-55----7-57-78-
e---7p5s3-3-----7-55p2-------------------


Bridge:
Tum chaley jaaoge to, sochenge...
E------------------------------------
A------------------------------------
D------------------------------------
G------------------------------------
B------------578------------78-------
e-5575-755-55----7797-977-77--5------

Humney kya khoya, humney kya paaya...
E------------------------------------
A------------------------------------
D--------7-77-----------77-----------
G-----777------------777-------------
B-7-55-------757-7-55-----757--------
e------------------------------------

Zindegi dhoop, tum ghanaa saaya!+...
E----------------------------------------
A----------------------------------------
D------------------------------77--------
G----------------------------77----------
B-78--------8-88---------7-55----7-57-78-
e---7p5s3-3-----7-55p2-------------------