Showing posts with label Saanson Ki Jaroorat (Aashiqui) guitar tabs lead. Show all posts
Showing posts with label Saanson Ki Jaroorat (Aashiqui) guitar tabs lead. Show all posts

Saanson Ki Jaroorat (Aashiqui) guitar tabs lead



E -------------------------------------------------------------------------
B -------------------------------------------------------------------------
G -4-2-4-2-0-2-4-5-5-4--2-2-2--0-2-0----------2-0-2-0---0-2-4-4-2-4-0-0-0--
D -----------------------------------3----------------3--------------------
   B A B A G A B C C B  A A A  G A G F        A G A G F G A B B A B G G G

E -------------------------------------------------------------------------
B -----------------3--------------------------------------------------------
G -4-2-4-2-0-2-4-5---5 4--2-2-2--0-2-0----------2-0-2-0---0-2-4-4-2-4-0-0-0--
D -------------------------------------3----------------3--------------------
   B A B A G A B C D C B  A A A  G A G F        A G A G F G A B B A B G G G


-------------

E -------------------------------------
B -------------------------------------
G -4-2-5-4-2-0-2--2-0-4-2-0---0--------
D --------------------------3----------
    ho ho ho ho ...

-------------

guitar part --- listen to song

G -0-0-0---0-------2-2-2---2-0-0-0-------
D -------0---3-3-3-------3---------------

-------------

E -------------------------------------------------------------------------
B -------------------------------------------------------------------------
G -0-----0--0---0--0--2--0--------------0-----0--0---0--0-5-2--0-----------
D ---------------------------3-2-3---------------------------------3-2-3---
   g     g  g   g  g  a  g   f e f      g     g  g   g  g c a  g   f e f
   saanson  Ki  Jaroorat hai Jaise      Saanson  Ki  Jaroorat  hai Jaise


E ------------------------------------
B ------------------------------------
G ---------5---5----2-2--------------
D ---2--3----------------------------
     e  f  b   b    a a
     Zindagi   Ke   Liye

E --------------------------------------------------------------
B ----1---1--1--1--3-1--0--------------------------------------------
G --------------------------2--0---------------2--2--0---0-----------
D ---------------------------------------2--3-----------------
      c   c  c  c  d c  b                e  f  a  a  g  g
      bas Ek Sanam chahiye  a  a         aashiqui Ke Liye


guitar music
E ------------------------------------------------------------------
B ------------------------------------------------------------------
G --0-2/4---0-2/4---0-2/4--0------------0-2/4---0-2/4---0-2/4--0------
D ---------------------------0-----------------------------------2----