Showing posts with label My Dil goes MmmmMmm Instrumental (Salam Namaste) guitar tabs lead lyrics. Show all posts
Showing posts with label My Dil goes MmmmMmm Instrumental (Salam Namaste) guitar tabs lead lyrics. Show all posts

My Dil goes MmmmMmm Instrumental (Salam Namaste) guitar tabs lead lyrics

|------6h76*-------6h7h6*-----------6h7h6*----------|
|--9-------9-9----9------9-9------9--------(9)------|
|---------------------------------------------------|* Star means Let it ring :)
|---------------------------------------------------|
|---------------------------------------------------|
|---------------------------------------------------|

(FIGURE 1)

The song start here:
|---6h7h6-----------------6h7h6------------6h7h6----------9-|
|-9------9-9-9-9-------9-----9-9-9-9----9---------9-9-9-9---|
|-----------------------------------------------------------|
|-----------------------------------------------------------|
|-----------------------------------------------------------|
|-----------------------------------------------------------|
Ati woh aysay chal kay jaysay janant mein rehti hay.. dekhti
                                                 hay sab ko aysay

|---6h7h6-------------------6-9-7-6-7------6-9-7-6-7--------|
|-9--------9-9-9-9--------9--------------9------------------|
|-----------------------------------------------------------|
|-----------------------------------------------------------|
|-----------------------------------------------------------|
|-----------------------------------------------------------|
jaysay sab ko woh sehti hay! Per Gussay mein jab ayy aur
                                         ankhein woh dilae ..

|---6-11--9-7-6-----------6-6*------------------------------|
|-9-------------9--7-9--------------------------------------|
|-----------------------------------------------------------|
|-----------------------------------------------------------|
|-----------------------------------------------------------|
|-----------------------------------------------------------|
lartay lartay galtee muskayyyyy..


|---6-7-----7-9-7-6-----6-7-6-------------------------------|
|-9-------------------9----------9--7--9--------------------|
|-----------------------------------------------------------|2x
|-----------------------------------------------------------|
|-----------------------------------------------------------|
|-----------------------------------------------------------|
My DiL Goes Mmm mMm mMmMmm mMMm mMMMmmm


|---6h7h6-----------------6h7h6------------6h7h6----------9-|
|-9------9-9-9-9-------9-----9-9-9-9----9---------9-9-9-9---|
|-----------------------------------------------------------|
|-----------------------------------------------------------|
|-----------------------------------------------------------|
|-----------------------------------------------------------|
kerti hoon jab us say batein,lagta hay sonay wala hay.SoO
                                                      kay Jab bhi woh Jagay..

|---6h7h6-------------------6-9-7-6-7------6-9-7-6-7--------|
|-9--------9-9-9-9--------9--------------9------------------|
|-----------------------------------------------------------|
|-----------------------------------------------------------|
|-----------------------------------------------------------|
|-----------------------------------------------------------|
lagta hay ronay wala hay!Per chup kay say woh ayy.. meree neend say
                                                    mujhay jagae..

|---6-11--9-7-6-----------6-6*------------------------------|
|-9-------------9--7-9--------------------------------------|
|-----------------------------------------------------------|
|-----------------------------------------------------------|
|-----------------------------------------------------------|
|-----------------------------------------------------------|
lay bahon mein aur khud hee gir jae..


|---6-7-----7-9-7-6-----6-7-6-------------------------------|
|-9-------------------9----------9--7--9--------------------|
|-----------------------------------------------------------|2x
|-----------------------------------------------------------|
|-----------------------------------------------------------|
|-----------------------------------------------------------|
My DiL Goes Mmm mMm mMmMmm mMMm mMMMmmm

again intro..  !
|---6h7h6*-------6h7h6*--------6h7h6------------------------|
|-9------9-9----9------9-9---9------------------------------|
|-----------------------------------------------------------|
|-----------------------------------------------------------|
|-----------------------------------------------------------|
|-----------------------------------------------------------|


|-----------------------------------------------------------|
|-12*-------11--9--7---9*-----------------------------------|
|----------------------------9------------------------------|2X
|-----------------------------------------------------------|
|-----------------------------------------------------------|
|-----------------------------------------------------------|
HAaNNn woh na Na kerti hay.. Haan Woh barta Karti hay
HaaNn Thori see zIdi hay. Haan AkaL say BIDi hay..


|-----------------------------------------------------------|
|-12-12-12----11-11-------9---7--7--9-9-9-------------------|
|-----------------------------------------------------------|2X
|-----------------------------------------------------------|
|-----------------------------------------------------------|
|-----------------------------------------------------------|
Jatay hein sab payein layein woh jatee hein.. bayri kee in
baton say mujh ko satati hay


|----6-9-7-6-7------6-9-7-6-7----------6--11--9-7---6-6h7*--|
|-9--------------9-------------------9------------9---------|
|-----------------------------------------------------------|
|-----------------------------------------------------------|
|-----------------------------------------------------------|
|-----------------------------------------------------------|
Her waqt say pehlay ana.Sunana koi bahana.. per dekhna mera
                                               rafta rozana..

|---6-7-----7-9-7-6-----6-7-6-------------------------------|
|-9-------------------9----------9--7--9--------------------|
|-----------------------------------------------------------|2x
|-----------------------------------------------------------|
|-----------------------------------------------------------|
|-----------------------------------------------------------|
My DiL Goes Mmm mMm mMmMmm mMMm mMMMmmm


Same pattern.. Repeats along with the rest of the song..



jaadu hain nasha hain
song goes out to flying bird



-------------------------
-------------------------
-4-4-4-4-4h5p4-----
-------------------------
-------------------------
-------------------------

jaadu hai nasha hain

-------------------------
-------------------------
-2-4-4-4h5p4--------
-------------------------
-------------------------
-------------------------

madhoshiyan hain


-------------------------
-------------------------
-4-4-4-2-2-2---------
----------------2-------
-------------------------
-------------------------

tujhko bhulake ab


-------------------------
-------------------------
---2-2-0-0-------------
-2------------------------
-------------------------
-------------------------

jaoon kahan


-------------------------
-------------------------
-0-4-5-4----------------------
-------------------------
-------------------------
-------------------------

kshama tujhko

-------------------------
-------------------------
-0-4-5-4----------------------
-------------------------
-------------------------
-------------------------

dekhti hain


-------------------------
-------------------------
-0-4-5-4-0-2--------------------
-------------------------
-------------------------
-------------------------

apni aur

-------------------------
--------5-5-7-5-3-3-
-2-5-5-------------
-------------------------
-------------------------
-------------------------

mita du saari yeh duriyan