Showing posts with label Maine Poocha Kudrat Se (Shukriya) guitar tabs lead. Show all posts
Showing posts with label Maine Poocha Kudrat Se (Shukriya) guitar tabs lead. Show all posts

Maine Poocha Kudrat Se (Shukriya) guitar tabs lead


G --5s7---5-7-8---7-5-(5s7)---5--------------------------
D --------------------------------8-7-8--7-8-7-----------
A --------------------------------------------------------

G --5s7---5-7-8-(8s10s8)--7-5-(5s7)---5------------------
D ----------------------------------------8-7-8--7-8-7---
A --------------------------------------------------------

G -------------------------------------------------------
D -----------7-----5-------------------------------------
A ---8-8-8------8----------------------------------------


s - slide
( ) - play single note