Showing posts with label Koi Yahan Aha Nache Nache (Disco Dancer) guitar tabs lead notes lyrics. Show all posts
Showing posts with label Koi Yahan Aha Nache Nache (Disco Dancer) guitar tabs lead notes lyrics. Show all posts

Koi Yahan Aha Nache Nache (Disco Dancer) guitar tabs lead notes lyrics

......Koi.....yahan.....aha.....naache.....naache
D |--5-5----7-7-5-----7------7-7---------5-7-------------------------------

......Koi.....wahan.....aha.....naache.....naache
D |--5-5----7-7-5-----7------7-7---------5-7------------------------------

......Saare....haseen....aha....naache....naache
D |--5-5-------7-7-------5-7----7-7-------5-7-----------------------------

......Saare....jawaan....aha....naache....naache
D |--5-5-------7-7-------5-7----7-7-------5-7-----------------------------

......Auva......auva......Tumse....hai....tumse... ..pyar
D |------5----------------5-7-------5-----7-5--------7----------------------
A |--5----------7-7----------------------------------------------------------

......Auva......auva......Maano....na....mere..... yaar
D |------5----------------5-7-------5-----7-5-------7-----------------------
A |--5----------7-7----------------------------------------------------------

......Auva......auva......Tumse....hai....tumse... ..pyar
D |------5----------------5-7-------5-----7-5--------7----------------------
A |--5----------7-7----------------------------------------------------------

......Aa.....aa......aa......aa
D |--5------4------2------4---------------------------------------------------

STANZA :-

......Yaara.....hai.....gaana.....yahi.....gaana.. ...bajaana.....yahi
D |--5-4-------5------7-5-------4-5-----5-4--------5-7-5-------4-5------------

......Tu.....tu.....tarana.....bang.....bang
D |--5-----4------5-7-5----5--------5-------------------------------------------


......Maane.....na.....maane.....koi.....Humne.... to......maana....yahi
D |--5-4--------5-----7-5-------4-5-----5-4-------5------7-5--------4-5--------

......Sunnaa.....sunnana.....bang.....bang
D |--5-4---------5-7-5-------5--------5-----------------------------------------