Showing posts with label J hindi songs tabs lead. Show all posts
Showing posts with label J hindi songs tabs lead. Show all posts

J hindi songs tabs lead



Just Chill - Guitar Tabs

Song: Just Chill

Movie/Album:  Maine Pyaar Kyun Kiya?
Music Director:  Himesh Reshammiya
Singer: Sonu Nigam, Jayesh Gandhi, Amrita Kak
Actors: Salman Khan, Katrina Kaif, Sushmita Sen,
            Sohail Khan, Arshad Warsi
Type: Guitar Tabs
Author:



e----------------------------------
B-2-----2-------------------------
G---2-0---2----------------------
D----------------------------------
A----------------------------------
E----------------------------------

Just Chill Chill Just Chill


e----------------------------------
B-2-----2-------------------------
G---2-0---2----------------------
D----------------------------------
A----------------------------------
E----------------------------------


Just Chill Chill Just Chill


Repeat Repeat and Repeat


e---------------------------------
B---0-3-2-0-2---2-0-----------
G-2-------------2----------------
D----------------------------------
A----------------------------------
E----------------------------------

{Sohniya Dil Se Mila Le Dil}  x2



e----------------------------------
B-2-----2-------------------------
G---2-0---2----------------------
D----------------------------------
A----------------------------------
E----------------------------------

Just Chill Chill Just Chill


e----------------------------------
B-2-----2-------------------------
G---2-0---2----------------------
D----------------------------------
A----------------------------------
E----------------------------------


Just Chill Chill Just Chill

Please Suggest Correction in Comments.