Showing posts with label tumse kahein ya hum na kahein.(bride and prejudice) guitar tabs lead. Show all posts
Showing posts with label tumse kahein ya hum na kahein.(bride and prejudice) guitar tabs lead. Show all posts

tumse kahein ya hum na kahein.(bride and prejudice) guitar tabs lead


TUMSE KAHEIN YA HUM NA KAHEIN...BRIDE AND PEJUDICE....TABS BY SANJU......



1.
g--------------------------
d-11-13.13.13s14-----------


2.
b--------------------------
g--11s13s11--11------------
d---------------14-13------


3.

b--------------------------
g--13.13.12.12.13----1515.15s18s15--------------------
d--------------------------



4.
b---------------------------------------------------------------
g---13s15s12----------------------------------------------------
d---------------------------------------------------------------



5.Play again the 1st part..same...


***************if any mistakes plz 4give me....enjoy playing*******************