Showing posts with label mere rang main ragne waali (maine pyaar kiya) guitar tabs lead lyrics. Show all posts
Showing posts with label mere rang main ragne waali (maine pyaar kiya) guitar tabs lead lyrics. Show all posts

mere rang main ragne waali (maine pyaar kiya) guitar tabs lead lyrics

---------------------------------------------
0-0-0-8-8------------8-10-12-10-8----
---------------------------------------------
---------------------------------------------
---------------------------------------------
---------------------------------------------

mere rang mein rang ne waali



---------------------------------------------
0-0-7-7-7------------5-7-8-7-5---------
---------------------------------------------
---------------------------------------------
---------------------------------------------
---------------------------------------------
pari ho ya ho pariyon ki rani


---------------------------------------------
---- 5-5-5-------------4-5-7-5-4---------
2-2-----------------------------------------
---------------------------------------------
---------------------------------------------
---------------------------------------------

ya ho meri prem kahani

---------------------------------------------
0-0-0-1--------------------8-7-3-7------
---------------------------------------------
---------------------------------------------
---------------------------------------------
---------------------------------------------
---------------------------------------------
mere sawalon ka jawab do


---------------------------------------------
---------------------------------------------
2-0-----------------------------------------
---------------------------------------------
---------------------------------------------
---------------------------------------------

do na