Showing posts with label Ye Shaam Mastani (KUCH TO LOG KAHENGE) guitar tabs lead. Show all posts
Showing posts with label Ye Shaam Mastani (KUCH TO LOG KAHENGE) guitar tabs lead. Show all posts

Ye Shaam Mastani (KUCH TO LOG KAHENGE) guitar tabs lead


Title : Ye Shaam Mastani

Tabbed By: CTG (chirag.amigo@gmail.com)

Instrument : Guitar

Tuning : Standard (E A D G B E)

--------------------------------------------------------------------------------

E|------------------------------------------------------
B|-------3-1------------------3-3/5---------------------
G|-0-5--------2-0----0-5---5----------------------------
D|------------------------------------------------------
A|------------------------------------------------------
E|------------------------------------------------------
 
--------------------------------------------------------------------------------

--------------------------------------------------------------------------------

E|------------------------------------------------------
B|-5-5-5/8------9-8-8-6----6-5-4/5-3-----8-1------------
G|------------------------------------------------------
D|------------------------------------------------------
A|------------------------------------------------------
E|------------------------------------------------------
 
--------------------------------------------------------------------------------


--------------------------------------------------------------------------------

E|------------------------------------------------------
B|---5-3-5-1-------5-3-5-3---3-----3-1-3/5-1------------
G|-0------------0----------4----0-----------------------
D|------------------------------------------------------
A|------------------------------------------------------
E|------------------------------------------------------
 
----------------------------------------------------------------------------