Showing posts with label JAANE DIL MEIN (2)(MUJHSE DOSTI KAROGE) guitar tabs lead lyrics. Show all posts
Showing posts with label JAANE DIL MEIN (2)(MUJHSE DOSTI KAROGE) guitar tabs lead lyrics. Show all posts

JAANE DIL MEIN (2)(MUJHSE DOSTI KAROGE) guitar tabs lead lyrics


Jaane Dil Mein
 
Film - Mujhse Dosti Karoge
Singers - Sonu Nigam and Lata Mangeshkar 
Music - Rahul Sharma
Lyricists -  Anand Bakshi 
---------------------------------------------------------
E|----------------------------10---------------
B|-----8--10--11---10--8--11-------------------
G|--7------------------------------------------
D|---------------------------------------------
    d  g  a   a#   a   g  a#  d
    Jaane dil mein kab se hai tu
 
E|--------------------------------------------
B|------8--10---11---10--8--10--6-------------
G|--7-----------------------------------------
D|--------------------------------------------
    d   g  a    a#   a   g  a   f
    Jab se main hoon tab se hai tu
 
E|--------------5----------5--8---------------
B|--------6--8-----8---6----------------------
G|----5---------------------------------------
D|--------------------------------------------
      c   f  g  a  g   f   a  c
      Mujhko mere  rab ki  kasam
 
E|--------------3-----6---5-------------------
B|---4--4---6------4----------8---------------
G|--------------------------------------------
D|--------------------------------------------
     d# d#  f   g  d# a#  a   g
     Yaara  rab se pehle  hai tu
-------------------------------------------------------------
This is the guitar melody. I have tried to keep 
it simple so this might be little different from 
the original.
E|------------6------------------8-6----------
B|-----6/8-8----6/8\6-8----6/8-8------6/8\6-6-8
G|--7--------------------7--------------------
D|--------------------------------------------
    d  f/g g a# f/g\f g, d f/g g c a# f\g/f f g  
 
E|----------6---------------------------------
B|----6/8-8----6/8\6-8------------------------
G|-7------------------------------------------
D|--------------------------------------------
   d f/g g a# f/g\f g,
 
E|-------6----8-6-----------------------------
B|----6-----8------8-6---6-8-6---6------------
G|--7------------------7-------7--------------
D|--------------------------------------------
    d f a# g c a# g f d f g f  d f
-----------------------------------------------------
Jaane dil mein kab se hai tu
Jab se main hoon tab se hai tu
Mujhko mere rab ki kasam
Yaara rab se pehle hai tu
 
----------------------------------------------------
 
E|----------------------8---------------------
B|-----6---8--10--11-8-----11-----------------
G|--------------------------------------------
D|--------------------------------------------
       f   g  a  a#  g  c  a#
       Raahi  chale  na chale, 
 
E|---------8----------------------------------
B|---10/11----10----8-----6--8--6-------------
G|--------------------------------------------
D|--------------------------------------------
      a/a# c  a     g     f  g  f
      chalte  hain  yeh   raastein
 
E|--------------------------------------------
B|-----6-8--11-10--8-----6-6/8\4--------------
G|--------------------------------------------
D|--------------------------------------------
       f g  a# a   g    f f/g\d#
       Aao  chalo  ruk  gayeeeeeen 
 
E|-------3----3----5------3-------------------
B|---4-----------------------6-6--------------
G|--------------------------------------------
D|--------------------------------------------
     d#  g    g    a     g  f f
     raste   mein  kis   vaaste
 
E|--------------------------------------------
B|-------6--8-10----11---10-11/13\11----------
G|--7-----------------------------------------
D|--------------------------------------------
    d    f  g  a    a#   a a#/c\a#
    Main to khadi   hoon yahin 
 
E|----------3-------6---5----3----------------
B|--4----6------4-----------------------------
G|--------------------------------------------
D|--------------------------------------------
    d#   f  g  d#   a#  a   g
    yaar mila  jab  se  hai tu
----------------------------------------------
 
Jaane dil mein kab se hai tu
Jab se main hoon tab se hai tu
Mujhko mere rab ki kasam
Yaara rab se pehle hai tu
---------------------------------------------