Showing posts with label Dil keh raha hai (Kyun Ki) guitar tabs lead. Show all posts
Showing posts with label Dil keh raha hai (Kyun Ki) guitar tabs lead. Show all posts

Dil keh raha hai (Kyun Ki) guitar tabs lead


E--8-7-5-7-5-3---
B
Dil keh raha hain

E--3-3-5-7-5-3---
B------------------5-
Tujse yu rishdha

E----3-2-------------
B--5------------------
jod lu.........

E-----3-5-5-5-3-7-5--
B---5--------------------
Teri dhadkhano ke chulu

E--5-7-5-5-5-3---3---
B-----------------5------
tera jism odh lu........
[repeat the stanza three times]

E--7-5-3-7-5-3-7-5-3-----5-
B-------------------------5-5---
Ankhon hai teri hain mara yeh chehra

E--3-5-7-5-3-0--0-5-3---
B---------------5-----------
chahe to yeh maane ya na maane
[repeat two times]