Tumne na jaana ke main deewana (chalte chalte) SRK guitar tabs lead lyrics


Movie = Chalte Chalte
Song = Tum nein na jana ke mein dewana
tabed by umar
comments @ umarboy@hotmail.com
 
 
E --5-4-5-9-4---------------------------
B --------------------------------------
G --------------------------------------
D --------------------------------------
A --------------------------------------
E --------------------------------------
  Tum Nein na Jana
 
E --5-4-5-9-4---------------------------
B --------------------------------------
G --------------------------------------
D --------------------------------------
A --------------------------------------
E --------------------------------------
  Ke mein Dewanna
 
E --5-4-5-9-4---------------------------
B --------------------------------------
G --------------------------------------
D --------------------------------------
A --------------------------------------
E --------------------------------------
  Le ker aaya houn
 
E --5-4-5-9-4---------------------------
B --------------------------------------
G --------------------------------------
D --------------------------------------
A --------------------------------------
E --------------------------------------
  Dil ka nazarana
 
 
E -5-5-12-10-9-7-5-9-7------------------
B --------------------------------------
G --------------------------------------
D --------------------------------------
A --------------------------------------
E --------------------------------------
  Mere dil ki hai jo dastaaan
 
E -5-5-7---5-5-7--0-7-5-----------------
B --------------------------------------
G --------------------------------------
D --------------------------------------
A --------------------------------------
E --------------------------------------
  Suno na suno..sun lo naaaa
                                                                              


EmoticonEmoticon