mere mehboob mere sanam (duplicate) guitar tabs lead lyrics


Tabbed by: Shyam A.K.A Netcreep (netcreep@hotmail.com)
 
 
E-----------------------------------------------------------------
B----------------------------------------------------------------
G------------------------3---2----------------0----------------
D--3--5--7---7--7-----------------3--0-----------------------
A----------------------------------------------------------------
E----------------------------------------------------------------
 
Mere Mehaboob Mere Sanam
 
E-----------------------------------------------------------------
B----------------------------------------------------------------
G-----------------------3--2-----------------------------------
D---3--5----7--7----------------2--0--2----------------------
A----------------------------------------------------------------
E----------------------------------------------------------------
 
Shukriya Meharabani Karam
 
 
E-----------------------------------------------------------------
B----------------------------------------------------------------
G----------------------------------------------------------------
D----------------------------------------------------------------
A----------------------------------------------------------------
E----------------------------------------------------------------

1 comments so far

The last part is 3 0 3 on the D string. Not 2 0 2.


EmoticonEmoticon