Main Hoon Don - Acoustic Guitar(with tabs) lead lyrics



E-----------------|-----
B-----------------|-----
G-----------------|-----
D-2-2-2-2-3-2-0---|-0----
A---------------2-|---2-
E-----------------|-----

Song:
D-9-8-9-----7-6-7------10-9-10--9-8-9
Dooniya mein,Logon nein,Dil Apne,Phir Thaamein

G-----7------------------8
D-9-8------10-9-10---9-8------10-9-9
Aaya Hoon, Lekar mein,Phir Kitne,Hungaamein

Theme:
E-12-7-8-10-------------
B------------10-11------
G------------------10-9-

[E-7-7-----------------
B-----8--------------8
G-------10-9-9-9-10--
Ajabsa Nasha Cha raha hai
E-7-7-----------------
B-----8--------------8
G-------10-9-9-9-10--
Mere Dil Ko Bheheka raha hai]....(x2 times)

E-12-7-8-10-------------12-7-8-10----15-13-12-
B------------10-11-----------------10-----------
G------------------10-9-------------------------

2 comments

nice BUT A BIT CONFUSING next TIMe make it a bit SIMPLER

confused !!!
make is simple broo.


EmoticonEmoticon